ISO-10303-21;
HEADER;
FILE_DESCRIPTION (( 'STEP AP203' ),
    '1' );
FILE_NAME ('BK7-BSC-15-400-700.STEP',
    '2020-12-22T03:17:31',
    ( '' ),
    ( '' ),
    'SwSTEP 2.0',
    'SolidWorks 2020',
    '' );
FILE_SCHEMA (( 'CONFIG_CONTROL_DESIGN' ));
ENDSEC;

DATA;
#1 = LINE ( 'NONE', #249, #217 ) ;
#2 = APPROVAL_STATUS ( 'not_yet_approved' ) ;
#3 = FACE_OUTER_BOUND ( 'NONE', #136, .T. ) ;
#4 = DIRECTION ( 'NONE',  ( 0.7071067811865475727, 0.7071067811865475727, 0.000000000000000000 ) ) ;
#5 = EDGE_CURVE ( 'NONE', #63, #219, #269, .T. ) ;
#6 = ORIENTED_EDGE ( 'NONE', *, *, #257, .T. ) ;
#7 = VECTOR ( 'NONE', #59, 1000.000000000000000 ) ;
#8 = ORIENTED_EDGE ( 'NONE', *, *, #145, .F. ) ;
#9 = ORIENTED_EDGE ( 'NONE', *, *, #319, .T. ) ;
#10 = CC_DESIGN_PERSON_AND_ORGANIZATION_ASSIGNMENT ( #119, #171, ( #55 ) ) ;
#11 = CARTESIAN_POINT ( 'NONE',  ( 7.500000000000001776, 7.499999999999998224, 7.500000000000000000 ) ) ;
#12 = ORIENTED_EDGE ( 'NONE', *, *, #5, .F. ) ;
#13 = ORIENTED_EDGE ( 'NONE', *, *, #185, .F. ) ;
#14 = ORGANIZATION ( 'UNSPECIFIED', 'UNSPECIFIED', '' ) ;
#15 = PERSON_AND_ORGANIZATION_ROLE ( 'creator' ) ;
#16 = DIRECTION ( 'NONE',  ( -0.000000000000000000, 0.000000000000000000, 1.000000000000000000 ) ) ;
#17 = COORDINATED_UNIVERSAL_TIME_OFFSET ( 8, 0, .AHEAD. ) ;
#18 = FACE_OUTER_BOUND ( 'NONE', #311, .T. ) ;
#19 = DATE_AND_TIME ( #76, #278 ) ;
#20 = CARTESIAN_POINT ( 'NONE',  ( 7.499999999999996447, 7.500000000000000000, 7.500000000000000000 ) ) ;
#21 = CC_DESIGN_DATE_AND_TIME_ASSIGNMENT ( #247, #221, ( #150 ) ) ;
#22 = LOCAL_TIME ( 11, 17, 31.00000000000000000, #34 ) ;
#23 = CARTESIAN_POINT ( 'NONE',  ( 7.500000000000001776, 7.499999999999998224, -7.500000000000000000 ) ) ;
#24 = PRODUCT_RELATED_PRODUCT_CATEGORY ( 'detail', '', ( #184 ) ) ;
#25 = CARTESIAN_POINT ( 'NONE',  ( 7.500000000000000888, -7.500000000000000888, 7.500000000000000000 ) ) ;
#26 = CARTESIAN_POINT ( 'NONE',  ( -7.499999999999999112, -7.500000000000000888, 7.500000000000000000 ) ) ;
#27 = ADVANCED_BREP_SHAPE_REPRESENTATION ( 'BK7-BSC-15-400-700', ( #198, #89, #303 ), #259 ) ;
#28 = APPROVAL_PERSON_ORGANIZATION ( #255, #140, #58 ) ;
#29 = DATE_TIME_ROLE ( 'classification_date' ) ;
#30 = VECTOR ( 'NONE', #114, 1000.000000000000000 ) ;
#31 = ADVANCED_FACE ( 'NONE', ( #220 ), #87, .T. ) ;
#32 = ORIENTED_EDGE ( 'NONE', *, *, #108, .T. ) ;
#33 = DIRECTION ( 'NONE',  ( 0.000000000000000000, 0.000000000000000000, 1.000000000000000000 ) ) ;
#34 = COORDINATED_UNIVERSAL_TIME_OFFSET ( 8, 0, .AHEAD. ) ;
#35 = PLANE ( 'NONE',  #300 ) ;
#36 = VECTOR ( 'NONE', #176, 1000.000000000000000 ) ;
#37 = CC_DESIGN_APPROVAL ( #140, ( #143 ) ) ;
#38 = ORIENTED_EDGE ( 'NONE', *, *, #82, .F. ) ;
#39 = DIRECTION ( 'NONE',  ( -0.7071067811865475727, -0.7071067811865475727, 0.000000000000000000 ) ) ;
#40 = DATE_AND_TIME ( #270, #244 ) ;
#41 = ORIENTED_EDGE ( 'NONE', *, *, #145, .T. ) ;
#42 = CALENDAR_DATE ( 2020, 22, 12 ) ;
#43 = CARTESIAN_POINT ( 'NONE',  ( 7.500000000000001776, 7.499999999999998224, 7.500000000000000000 ) ) ;
#44 = COORDINATED_UNIVERSAL_TIME_OFFSET ( 8, 0, .AHEAD. ) ;
#45 = APPROVAL ( #165, 'UNSPECIFIED' ) ;
#46 = ADVANCED_FACE ( 'NONE', ( #3 ), #35, .F. ) ;
#47 = DIRECTION ( 'NONE',  ( 1.000000000000000000, -1.642204890591376725E-16, 0.000000000000000000 ) ) ;
#48 = PLANE ( 'NONE',  #104 ) ;
#49 = ORIENTED_EDGE ( 'NONE', *, *, #90, .F. ) ;
#50 = PLANE ( 'NONE',  #193 ) ;
#51 = EDGE_CURVE ( 'NONE', #219, #304, #110, .T. ) ;
#52 = LINE ( 'NONE', #178, #314 ) ;
#53 = EDGE_CURVE ( 'NONE', #109, #164, #210, .T. ) ;
#54 = VECTOR ( 'NONE', #39, 999.9999999999998863 ) ;
#55 = PRODUCT_DEFINITION_FORMATION_WITH_SPECIFIED_SOURCE ( 'ANY', '', #184, .NOT_KNOWN. ) ;
#56 = APPROVAL_DATE_TIME ( #155, #140 ) ;
#57 = DIRECTION ( 'NONE',  ( 0.000000000000000000, 0.000000000000000000, 1.000000000000000000 ) ) ;
#58 = APPROVAL_ROLE ( '' ) ;
#59 = DIRECTION ( 'NONE',  ( -2.220446049250312588E-16, 1.000000000000000000, 0.000000000000000000 ) ) ;
#60 = CARTESIAN_POINT ( 'NONE',  ( 7.500000000000001776, 7.499999999999998224, 7.500000000000000000 ) ) ;
#61 = ORIENTED_EDGE ( 'NONE', *, *, #276, .F. ) ;
#62 = UNCERTAINTY_MEASURE_WITH_UNIT (LENGTH_MEASURE( 1.000000000000000082E-05 ), #70, 'distance_accuracy_value', 'NONE');
#63 = VERTEX_POINT ( 'NONE', #310 ) ;
#64 = PERSON_AND_ORGANIZATION ( #237, #14 ) ;
#65 = ORIENTED_EDGE ( 'NONE', *, *, #90, .T. ) ;
#66 = EDGE_LOOP ( 'NONE', ( #189, #192, #112, #265 ) ) ;
#67 = DIRECTION ( 'NONE',  ( 1.000000000000000000, 0.000000000000000000, 0.000000000000000000 ) ) ;
#68 = VERTEX_POINT ( 'NONE', #308 ) ;
#69 = ADVANCED_FACE ( 'NONE', ( #129 ), #139, .F. ) ;
#70 =( LENGTH_UNIT ( ) NAMED_UNIT ( * ) SI_UNIT ( .MILLI., .METRE. ) );
#71 = DIRECTION ( 'NONE',  ( -0.7071067811865474617, -0.7071067811865474617, 0.000000000000000000 ) ) ;
#72 = AXIS2_PLACEMENT_3D ( 'NONE', #26, #231, #153 ) ;
#73 = PERSON_AND_ORGANIZATION_ROLE ( 'design_owner' ) ;
#74 = EDGE_CURVE ( 'NONE', #304, #63, #212, .T. ) ;
#75 = LINE ( 'NONE', #222, #238 ) ;
#76 = CALENDAR_DATE ( 2020, 22, 12 ) ;
#77 = DIRECTION ( 'NONE',  ( 1.000000000000000000, 0.000000000000000000, 0.000000000000000000 ) ) ;
#78 = DIRECTION ( 'NONE',  ( 1.000000000000000000, 0.000000000000000000, 0.000000000000000000 ) ) ;
#79 = LINE ( 'NONE', #147, #36 ) ;
#80 = CARTESIAN_POINT ( 'NONE',  ( 7.500000000000001776, 7.499999999999998224, -7.500000000000000000 ) ) ;
#81 = DIRECTION ( 'NONE',  ( -0.7071067811865475727, -0.7071067811865475727, 0.000000000000000000 ) ) ;
#82 = EDGE_CURVE ( 'NONE', #208, #68, #183, .T. ) ;
#83 = PLANE ( 'NONE',  #267 ) ;
#84 = CALENDAR_DATE ( 2020, 22, 12 ) ;
#85 = CLOSED_SHELL ( 'NONE', ( #132, #291, #106, #134, #216 ) ) ;
#86 = EDGE_LOOP ( 'NONE', ( #260, #61, #38, #288 ) ) ;
#87 = PLANE ( 'NONE',  #149 ) ;
#88 = VECTOR ( 'NONE', #204, 1000.000000000000000 ) ;
#89 = MANIFOLD_SOLID_BREP ( '¾µÏ', #186 ) ;
#90 = EDGE_CURVE ( 'NONE', #164, #315, #316, .T. ) ;
#91 = ORIENTED_EDGE ( 'NONE', *, *, #74, .F. ) ;
#92 = PRODUCT_DEFINITION_SHAPE ( 'NONE', 'NONE',  #150 ) ;
#93 = EDGE_CURVE ( 'NONE', #109, #304, #1, .T. ) ;
#94 = CARTESIAN_POINT ( 'NONE',  ( -7.499999999999999112, -7.500000000000000888, 7.500000000000000000 ) ) ;
#95 = ADVANCED_FACE ( 'NONE', ( #98 ), #199, .F. ) ;
#96 = ORIENTED_EDGE ( 'NONE', *, *, #172, .T. ) ;
#97 = PERSON_AND_ORGANIZATION ( #237, #14 ) ;
#98 = FACE_OUTER_BOUND ( 'NONE', #167, .T. ) ;
#99 = DIRECTION ( 'NONE',  ( 0.000000000000000000, 0.000000000000000000, 1.000000000000000000 ) ) ;
#100 = FACE_OUTER_BOUND ( 'NONE', #218, .T. ) ;
#101 = APPROVAL_PERSON_ORGANIZATION ( #144, #299, #297 ) ;
#102 = PLANE ( 'NONE',  #317 ) ;
#103 = VECTOR ( 'NONE', #131, 1000.000000000000000 ) ;
#104 = AXIS2_PLACEMENT_3D ( 'NONE', #138, #115, #99 ) ;
#105 = LINE ( 'NONE', #148, #175 ) ;
#106 = ADVANCED_FACE ( 'NONE', ( #173 ), #50, .F. ) ;
#107 = CARTESIAN_POINT ( 'NONE',  ( 0.000000000000000000, 0.000000000000000000, -7.500000000000000000 ) ) ;
#108 = EDGE_CURVE ( 'NONE', #307, #159, #272, .T. ) ;
#109 = VERTEX_POINT ( 'NONE', #294 ) ;
#110 = LINE ( 'NONE', #154, #54 ) ;
#111 = VECTOR ( 'NONE', #266, 1000.000000000000114 ) ;
#112 = ORIENTED_EDGE ( 'NONE', *, *, #281, .T. ) ;
#113 = EDGE_LOOP ( 'NONE', ( #91, #309, #157, #214 ) ) ;
#114 = DIRECTION ( 'NONE',  ( 5.782411586589357392E-17, 1.000000000000000000, -0.000000000000000000 ) ) ;
#115 = DIRECTION ( 'NONE',  ( 1.000000000000000000, -2.220446049250312588E-16, 0.000000000000000000 ) ) ;
#116 = DIRECTION ( 'NONE',  ( 1.000000000000000000, 0.000000000000000000, 0.000000000000000000 ) ) ;
#117 = APPROVAL_DATE_TIME ( #19, #299 ) ;
#118 = VECTOR ( 'NONE', #77, 1000.000000000000000 ) ;
#119 = PERSON_AND_ORGANIZATION ( #237, #14 ) ;
#120 = PLANE ( 'NONE',  #187 ) ;
#121 = CARTESIAN_POINT ( 'NONE',  ( -7.499999999999999112, -7.500000000000000888, -7.500000000000000000 ) ) ;
#122 = LINE ( 'NONE', #80, #130 ) ;
#123 = CARTESIAN_POINT ( 'NONE',  ( 0.000000000000000000, 0.000000000000000000, -7.500000000000000000 ) ) ;
#124 = CC_DESIGN_PERSON_AND_ORGANIZATION_ASSIGNMENT ( #235, #151, ( #143 ) ) ;
#125 = FACE_OUTER_BOUND ( 'NONE', #264, .T. ) ;
#126 = DIRECTION ( 'NONE',  ( -0.000000000000000000, -0.000000000000000000, -1.000000000000000000 ) ) ;
#127 = COORDINATED_UNIVERSAL_TIME_OFFSET ( 8, 0, .AHEAD. ) ;
#128 = VECTOR ( 'NONE', #47, 1000.000000000000000 ) ;
#129 = FACE_OUTER_BOUND ( 'NONE', #66, .T. ) ;
#130 = VECTOR ( 'NONE', #229, 1000.000000000000000 ) ;
#131 = DIRECTION ( 'NONE',  ( -2.220446049250312588E-16, 1.000000000000000000, 0.000000000000000000 ) ) ;
#132 = ADVANCED_FACE ( 'NONE', ( #18 ), #120, .F. ) ;
#133 = CARTESIAN_POINT ( 'NONE',  ( 7.499999999999996447, 7.500000000000000000, -7.500000000000000000 ) ) ;
#134 = ADVANCED_FACE ( 'NONE', ( #100 ), #102, .T. ) ;
#135 = DESIGN_CONTEXT ( 'detailed design', #256, 'design' ) ;
#136 = EDGE_LOOP ( 'NONE', ( #191, #236, #290 ) ) ;
#137 = VERTEX_POINT ( 'NONE', #23 ) ;
#138 = CARTESIAN_POINT ( 'NONE',  ( -7.499999999999999112, -7.499999999999997335, 7.500000000000000000 ) ) ;
#139 = PLANE ( 'NONE',  #224 ) ;
#140 = APPROVAL ( #2, 'UNSPECIFIED' ) ;
#141 = APPROVAL_DATE_TIME ( #40, #45 ) ;
#142 = DIRECTION ( 'NONE',  ( -2.220446049250312588E-16, 1.000000000000000000, 0.000000000000000000 ) ) ;
#143 = SECURITY_CLASSIFICATION ( '', '', #209 ) ;
#144 = PERSON_AND_ORGANIZATION ( #237, #14 ) ;
#145 = EDGE_CURVE ( 'NONE', #137, #159, #75, .T. ) ;
#146 = CARTESIAN_POINT ( 'NONE',  ( -7.499999999999999112, -7.500000000000000888, 7.500000000000000000 ) ) ;
#147 = CARTESIAN_POINT ( 'NONE',  ( -7.499999999999999112, -7.500000000000000888, 7.500000000000000000 ) ) ;
#148 = CARTESIAN_POINT ( 'NONE',  ( 7.499999999999996447, 7.500000000000000000, 7.500000000000000000 ) ) ;
#149 = AXIS2_PLACEMENT_3D ( 'NONE', #293, #33, #142 ) ;
#150 = PRODUCT_DEFINITION ( 'UNKNOWN', '', #55, #135 ) ;
#151 = PERSON_AND_ORGANIZATION_ROLE ( 'classification_officer' ) ;
#152 = CC_DESIGN_APPROVAL ( #45, ( #150 ) ) ;
#153 = DIRECTION ( 'NONE',  ( 0.000000000000000000, -0.000000000000000000, 1.000000000000000000 ) ) ;
#154 = CARTESIAN_POINT ( 'NONE',  ( 7.499999999999996447, 7.500000000000000000, -7.500000000000000000 ) ) ;
#155 = DATE_AND_TIME ( #84, #239 ) ;
#156 = VECTOR ( 'NONE', #318, 1000.000000000000000 ) ;
#157 = ORIENTED_EDGE ( 'NONE', *, *, #53, .T. ) ;
#158 = CARTESIAN_POINT ( 'NONE',  ( -7.499999999999999112, -7.499999999999997335, 7.500000000000000000 ) ) ;
#159 = VERTEX_POINT ( 'NONE', #121 ) ;
#160 = ORIENTED_EDGE ( 'NONE', *, *, #273, .F. ) ;
#161 = ORIENTED_EDGE ( 'NONE', *, *, #319, .F. ) ;
#162 = CARTESIAN_POINT ( 'NONE',  ( 7.499999999999996447, 7.500000000000000000, 7.500000000000000000 ) ) ;
#163 = CC_DESIGN_DATE_AND_TIME_ASSIGNMENT ( #306, #29, ( #143 ) ) ;
#164 = VERTEX_POINT ( 'NONE', #274 ) ;
#165 = APPROVAL_STATUS ( 'not_yet_approved' ) ;
#166 = ORIENTED_EDGE ( 'NONE', *, *, #276, .T. ) ;
#167 = EDGE_LOOP ( 'NONE', ( #12, #258, #65, #6 ) ) ;
#168 = DIRECTION ( 'NONE',  ( 0.000000000000000000, 0.000000000000000000, 1.000000000000000000 ) ) ;
#169 = PERSON_AND_ORGANIZATION ( #237, #14 ) ;
#170 = DIRECTION ( 'NONE',  ( -1.000000000000000000, 5.782411586589357392E-17, 0.000000000000000000 ) ) ;
#171 = PERSON_AND_ORGANIZATION_ROLE ( 'creator' ) ;
#172 = EDGE_CURVE ( 'NONE', #307, #208, #79, .T. ) ;
#173 = FACE_OUTER_BOUND ( 'NONE', #86, .T. ) ;
#174 = LINE ( 'NONE', #305, #287 ) ;
#175 = VECTOR ( 'NONE', #232, 1000.000000000000000 ) ;
#176 = DIRECTION ( 'NONE',  ( 1.000000000000000000, 0.000000000000000000, 0.000000000000000000 ) ) ;
#177 = LINE ( 'NONE', #230, #88 ) ;
#178 = CARTESIAN_POINT ( 'NONE',  ( -7.500000000000002665, 7.500000000000002665, 7.500000000000000000 ) ) ;
#179 = CARTESIAN_POINT ( 'NONE',  ( 7.499999999999996447, 7.500000000000000000, -7.500000000000000000 ) ) ;
#180 = AXIS2_PLACEMENT_3D ( 'NONE', #196, #201, #194 ) ;
#181 = DIRECTION ( 'NONE',  ( 1.000000000000000000, -1.642204890591376725E-16, 0.000000000000000000 ) ) ;
#182 = EDGE_LOOP ( 'NONE', ( #263, #49, #262 ) ) ;
#183 = LINE ( 'NONE', #60, #30 ) ;
#184 = PRODUCT ( 'BK7-BSC-15-400-700', 'BK7-BSC-15-400-700', '', ( #228 ) ) ;
#185 = EDGE_CURVE ( 'NONE', #159, #271, #227, .T. ) ;
#186 = CLOSED_SHELL ( 'NONE', ( #69, #313, #95, #31, #46 ) ) ;
#187 = AXIS2_PLACEMENT_3D ( 'NONE', #43, #277, #225 ) ;
#188 = ORIENTED_EDGE ( 'NONE', *, *, #211, .F. ) ;
#189 = ORIENTED_EDGE ( 'NONE', *, *, #51, .F. ) ;
#190 = LINE ( 'NONE', #11, #111 ) ;
#191 = ORIENTED_EDGE ( 'NONE', *, *, #51, .T. ) ;
#192 = ORIENTED_EDGE ( 'NONE', *, *, #257, .F. ) ;
#193 = AXIS2_PLACEMENT_3D ( 'NONE', #245, #170, #301 ) ;
#194 = DIRECTION ( 'NONE',  ( -1.000000000000000000, 1.642204890591376725E-16, 0.000000000000000000 ) ) ;
#195 = LOCAL_TIME ( 11, 17, 31.00000000000000000, #44 ) ;
#196 = CARTESIAN_POINT ( 'NONE',  ( 7.499999999999996447, 7.500000000000000000, 7.500000000000000000 ) ) ;
#197 = COORDINATED_UNIVERSAL_TIME_OFFSET ( 8, 0, .AHEAD. ) ;
#198 = MANIFOLD_SOLID_BREP ( 'Í¹Ì¨-À', #85 ) ;
#199 = PLANE ( 'NONE',  #180 ) ;
#200 = CARTESIAN_POINT ( 'NONE',  ( 0.000000000000000000, 0.000000000000000000, 0.000000000000000000 ) ) ;
#201 = DIRECTION ( 'NONE',  ( -1.642204890591376725E-16, -1.000000000000000000, 0.000000000000000000 ) ) ;
#202 = APPROVAL_PERSON_ORGANIZATION ( #169, #45, #223 ) ;
#203 = CC_DESIGN_APPROVAL ( #299, ( #55 ) ) ;
#204 = DIRECTION ( 'NONE',  ( -0.000000000000000000, -0.000000000000000000, -1.000000000000000000 ) ) ;
#205 = CALENDAR_DATE ( 2020, 22, 12 ) ;
#206 = FACE_OUTER_BOUND ( 'NONE', #268, .T. ) ;
#207 = PERSON_AND_ORGANIZATION ( #237, #14 ) ;
#208 = VERTEX_POINT ( 'NONE', #320 ) ;
#209 = SECURITY_CLASSIFICATION_LEVEL ( 'unclassified' ) ;
#210 = LINE ( 'NONE', #158, #103 ) ;
#211 = EDGE_CURVE ( 'NONE', #208, #271, #253, .T. ) ;
#212 = LINE ( 'NONE', #286, #7 ) ;
#213 = DIRECTION ( 'NONE',  ( -2.220446049250312588E-16, 1.000000000000000000, 0.000000000000000000 ) ) ;
#214 = ORIENTED_EDGE ( 'NONE', *, *, #289, .T. ) ;
#215 = ORIENTED_EDGE ( 'NONE', *, *, #82, .T. ) ;
#216 = ADVANCED_FACE ( 'NONE', ( #206 ), #83, .F. ) ;
#217 = VECTOR ( 'NONE', #251, 1000.000000000000000 ) ;
#218 = EDGE_LOOP ( 'NONE', ( #9, #96, #215 ) ) ;
#219 = VERTEX_POINT ( 'NONE', #179 ) ;
#220 = FACE_OUTER_BOUND ( 'NONE', #182, .T. ) ;
#221 = DATE_TIME_ROLE ( 'creation_date' ) ;
#222 = CARTESIAN_POINT ( 'NONE',  ( 7.500000000000001776, 7.499999999999998224, -7.500000000000000000 ) ) ;
#223 = APPROVAL_ROLE ( '' ) ;
#224 = AXIS2_PLACEMENT_3D ( 'NONE', #234, #243, #4 ) ;
#225 = DIRECTION ( 'NONE',  ( 0.7071067811865474617, 0.7071067811865474617, 0.000000000000000000 ) ) ;
#226 = APPLICATION_PROTOCOL_DEFINITION ( 'international standard', 'config_control_design', 1994, #256 ) ;
#227 = LINE ( 'NONE', #298, #118 ) ;
#228 = MECHANICAL_CONTEXT ( 'NONE', #233, 'mechanical' ) ;
#229 = DIRECTION ( 'NONE',  ( 5.782411586589357392E-17, 1.000000000000000000, -0.000000000000000000 ) ) ;
#230 = CARTESIAN_POINT ( 'NONE',  ( 7.500000000000001776, 7.499999999999998224, 7.500000000000000000 ) ) ;
#231 = DIRECTION ( 'NONE',  ( 0.000000000000000000, 1.000000000000000000, 0.000000000000000000 ) ) ;
#232 = DIRECTION ( 'NONE',  ( 0.000000000000000000, 0.000000000000000000, -1.000000000000000000 ) ) ;
#233 = APPLICATION_CONTEXT ( 'configuration controlled 3d designs of mechanical parts and assemblies' ) ;
#234 = CARTESIAN_POINT ( 'NONE',  ( 7.499999999999996447, 7.500000000000000000, 7.500000000000000000 ) ) ;
#235 = PERSON_AND_ORGANIZATION ( #237, #14 ) ;
#236 = ORIENTED_EDGE ( 'NONE', *, *, #74, .T. ) ;
#237 = PERSON ( 'UNSPECIFIED', 'UNSPECIFIED', 'UNSPECIFIED', ('UNSPECIFIED'), ('UNSPECIFIED'), ('UNSPECIFIED') ) ;
#238 = VECTOR ( 'NONE', #71, 1000.000000000000114 ) ;
#239 = LOCAL_TIME ( 11, 17, 31.00000000000000000, #127 ) ;
#240 = CC_DESIGN_SECURITY_CLASSIFICATION ( #143, ( #55 ) ) ;
#241 = ORIENTED_EDGE ( 'NONE', *, *, #108, .F. ) ;
#242 =( NAMED_UNIT ( * ) PLANE_ANGLE_UNIT ( ) SI_UNIT ( $, .RADIAN. ) );
#243 = DIRECTION ( 'NONE',  ( -0.7071067811865475727, 0.7071067811865475727, 0.000000000000000000 ) ) ;
#244 = LOCAL_TIME ( 11, 17, 31.00000000000000000, #197 ) ;
#245 = CARTESIAN_POINT ( 'NONE',  ( 7.500000000000001776, 7.499999999999998224, 7.500000000000000000 ) ) ;
#246 = APPROVAL_STATUS ( 'not_yet_approved' ) ;
#247 = DATE_AND_TIME ( #42, #195 ) ;
#248 = VECTOR ( 'NONE', #126, 1000.000000000000000 ) ;
#249 = CARTESIAN_POINT ( 'NONE',  ( -7.499999999999999112, -7.499999999999997335, 7.500000000000000000 ) ) ;
#250 = APPLICATION_PROTOCOL_DEFINITION ( 'international standard', 'config_control_design', 1994, #233 ) ;
#251 = DIRECTION ( 'NONE',  ( 0.000000000000000000, 0.000000000000000000, -1.000000000000000000 ) ) ;
#252 = DIRECTION ( 'NONE',  ( 0.000000000000000000, 0.000000000000000000, -1.000000000000000000 ) ) ;
#253 = LINE ( 'NONE', #25, #248 ) ;
#254 = CARTESIAN_POINT ( 'NONE',  ( 7.500000000000000888, -7.500000000000000888, -7.500000000000000000 ) ) ;
#255 = PERSON_AND_ORGANIZATION ( #237, #14 ) ;
#256 = APPLICATION_CONTEXT ( 'configuration controlled 3d designs of mechanical parts and assemblies' ) ;
#257 = EDGE_CURVE ( 'NONE', #315, #219, #105, .T. ) ;
#258 = ORIENTED_EDGE ( 'NONE', *, *, #289, .F. ) ;
#259 =( GEOMETRIC_REPRESENTATION_CONTEXT ( 3 ) GLOBAL_UNCERTAINTY_ASSIGNED_CONTEXT ( ( #62 ) ) GLOBAL_UNIT_ASSIGNED_CONTEXT ( ( #70, #242, #321 ) ) REPRESENTATION_CONTEXT ( 'NONE', 'WORKASPACE' ) );
#260 = ORIENTED_EDGE ( 'NONE', *, *, #273, .T. ) ;
#261 = PERSON_AND_ORGANIZATION_ROLE ( 'design_supplier' ) ;
#262 = ORIENTED_EDGE ( 'NONE', *, *, #53, .F. ) ;
#263 = ORIENTED_EDGE ( 'NONE', *, *, #281, .F. ) ;
#264 = EDGE_LOOP ( 'NONE', ( #292, #188, #283, #32 ) ) ;
#265 = ORIENTED_EDGE ( 'NONE', *, *, #93, .T. ) ;
#266 = DIRECTION ( 'NONE',  ( -0.7071067811865474617, -0.7071067811865474617, 0.000000000000000000 ) ) ;
#267 = AXIS2_PLACEMENT_3D ( 'NONE', #123, #302, #78 ) ;
#268 = EDGE_LOOP ( 'NONE', ( #8, #160, #13 ) ) ;
#269 = LINE ( 'NONE', #133, #275 ) ;
#270 = CALENDAR_DATE ( 2020, 22, 12 ) ;
#271 = VERTEX_POINT ( 'NONE', #254 ) ;
#272 = LINE ( 'NONE', #146, #156 ) ;
#273 = EDGE_CURVE ( 'NONE', #271, #137, #122, .T. ) ;
#274 = CARTESIAN_POINT ( 'NONE',  ( -7.500000000000002665, 7.500000000000002665, 7.500000000000000000 ) ) ;
#275 = VECTOR ( 'NONE', #181, 1000.000000000000000 ) ;
#276 = EDGE_CURVE ( 'NONE', #68, #137, #177, .T. ) ;
#277 = DIRECTION ( 'NONE',  ( 0.7071067811865475727, -0.7071067811865475727, 0.000000000000000000 ) ) ;
#278 = LOCAL_TIME ( 11, 17, 31.00000000000000000, #17 ) ;
#279 = PLANE ( 'NONE',  #72 ) ;
#280 = CARTESIAN_POINT ( 'NONE',  ( -7.499999999999999112, -7.499999999999997335, -7.500000000000000000 ) ) ;
#281 = EDGE_CURVE ( 'NONE', #315, #109, #174, .T. ) ;
#282 = SHAPE_DEFINITION_REPRESENTATION ( #92, #27 ) ;
#283 = ORIENTED_EDGE ( 'NONE', *, *, #172, .F. ) ;
#284 = CC_DESIGN_PERSON_AND_ORGANIZATION_ASSIGNMENT ( #207, #261, ( #55 ) ) ;
#285 = CC_DESIGN_PERSON_AND_ORGANIZATION_ASSIGNMENT ( #64, #73, ( #184 ) ) ;
#286 = CARTESIAN_POINT ( 'NONE',  ( -7.499999999999999112, -7.499999999999997335, -7.500000000000000000 ) ) ;
#287 = VECTOR ( 'NONE', #81, 999.9999999999998863 ) ;
#288 = ORIENTED_EDGE ( 'NONE', *, *, #211, .T. ) ;
#289 = EDGE_CURVE ( 'NONE', #164, #63, #52, .T. ) ;
#290 = ORIENTED_EDGE ( 'NONE', *, *, #5, .T. ) ;
#291 = ADVANCED_FACE ( 'NONE', ( #125 ), #279, .F. ) ;
#292 = ORIENTED_EDGE ( 'NONE', *, *, #185, .T. ) ;
#293 = CARTESIAN_POINT ( 'NONE',  ( 0.000000000000000000, 0.000000000000000000, 7.500000000000000000 ) ) ;
#294 = CARTESIAN_POINT ( 'NONE',  ( -7.499999999999999112, -7.499999999999997335, 7.500000000000000000 ) ) ;
#295 = FACE_OUTER_BOUND ( 'NONE', #113, .T. ) ;
#296 = CARTESIAN_POINT ( 'NONE',  ( 0.000000000000000000, 0.000000000000000000, 7.500000000000000000 ) ) ;
#297 = APPROVAL_ROLE ( '' ) ;
#298 = CARTESIAN_POINT ( 'NONE',  ( -7.499999999999999112, -7.500000000000000888, -7.500000000000000000 ) ) ;
#299 = APPROVAL ( #246, 'UNSPECIFIED' ) ;
#300 = AXIS2_PLACEMENT_3D ( 'NONE', #107, #57, #213 ) ;
#301 = DIRECTION ( 'NONE',  ( -5.782411586589357392E-17, -1.000000000000000000, 0.000000000000000000 ) ) ;
#302 = DIRECTION ( 'NONE',  ( -0.000000000000000000, 0.000000000000000000, 1.000000000000000000 ) ) ;
#303 = AXIS2_PLACEMENT_3D ( 'NONE', #200, #168, #67 ) ;
#304 = VERTEX_POINT ( 'NONE', #280 ) ;
#305 = CARTESIAN_POINT ( 'NONE',  ( 7.499999999999996447, 7.500000000000000000, 7.500000000000000000 ) ) ;
#306 = DATE_AND_TIME ( #205, #22 ) ;
#307 = VERTEX_POINT ( 'NONE', #94 ) ;
#308 = CARTESIAN_POINT ( 'NONE',  ( 7.500000000000001776, 7.499999999999998224, 7.500000000000000000 ) ) ;
#309 = ORIENTED_EDGE ( 'NONE', *, *, #93, .F. ) ;
#310 = CARTESIAN_POINT ( 'NONE',  ( -7.500000000000002665, 7.500000000000002665, -7.500000000000000000 ) ) ;
#311 = EDGE_LOOP ( 'NONE', ( #41, #241, #161, #166 ) ) ;
#312 = CC_DESIGN_PERSON_AND_ORGANIZATION_ASSIGNMENT ( #97, #15, ( #150 ) ) ;
#313 = ADVANCED_FACE ( 'NONE', ( #295 ), #48, .F. ) ;
#314 = VECTOR ( 'NONE', #252, 1000.000000000000000 ) ;
#315 = VERTEX_POINT ( 'NONE', #162 ) ;
#316 = LINE ( 'NONE', #20, #128 ) ;
#317 = AXIS2_PLACEMENT_3D ( 'NONE', #296, #16, #116 ) ;
#318 = DIRECTION ( 'NONE',  ( -0.000000000000000000, -0.000000000000000000, -1.000000000000000000 ) ) ;
#319 = EDGE_CURVE ( 'NONE', #68, #307, #190, .T. ) ;
#320 = CARTESIAN_POINT ( 'NONE',  ( 7.500000000000000888, -7.500000000000000888, 7.500000000000000000 ) ) ;
#321 =( NAMED_UNIT ( * ) SI_UNIT ( $, .STERADIAN. ) SOLID_ANGLE_UNIT ( ) );
ENDSEC;
END-ISO-10303-21;
